BON JOVI FAN CENTRAL

home
bon jovi news
world tour
songs & albums
photo archives
fan community
downloads
dry county archives
bon jovi web guide
Album: Crush

I Got the Girl

I got the girl
**************

Main riff played during the intro, the 1st and 2nd verse

G----------------------------------------------
D--2---------------------2---------------------
A-----2h3p2p0---------------2h3p2p0------------
E-------------3--2h3p2p0------------3--2h3p2p0-



Stop playing after G and let ring before the chorus


Chorus :

G-----------------------0--0-0--0-0--0--0-0-
D--0--0-0--0-0--0--0-0----------------------
A-------------------------------------------
E-------------------------------------------

G-----------------------0--0-0--0-0--0--0-0-
D--0--0-0--0-0--0--0-0----------------------
A-------------------------------------------
E-------------------------------------------

G-----------------------0--0-0--0-0--0--0-0-
D--0--0-0--0-0--0--0-0----------------------
A-------------------------------------------
E-------------------------------------------

G-------------------------------------------
D--0--0-0--0-0--0--0-0--0--0-0--0-0--0--0-0-
A-------------------------------------------
E-------------------------------------------

Bridge :

G----------------------------------------------
D-----------2---------------------2------------
A----------------------------------------------
E--0--3--5-------------3---------------------3-

G----------------------------------------------
D-----------2---------------------2------------
A----------------------------------------------
E--0--3--5-------------3---------------------3-

G------------
D------------
A------------
E--0--3--5---

Play the chorus under the guitar solo

Riff for the last verse :

G-------------------------------------
D--2---------------------2------------
A-------------------------------------
E-------------3---------------------3-

And then play the chorus until the fade out.


----
Transcribed by Zo de York [zoe_deyork@hotmail.com]

back to song list

home news music info center tour photo archives fan community archives web guide
Design & site concept © 1995-2015 PWCR. All Rights Reserved. Privacy Policy.    Cookie Policy.