BON JOVI FAN CENTRAL

home
bon jovi news
world tour
songs & albums
photo archives
fan community
downloads
dry county archives
bon jovi web guide
Album: Keep the Faith

Keep The Faith

Bon Jovi  Keep The Faith

Intro -
G----------------------------------------------------------------
D------------53--5---3----------53-- 5----3---------53---5---3---------------
A----------5----5--5-----------5-----5--5-----333-5----5---5-----------------
E--333---------------333-----------------------------------------------





G----------------------------------------------------------------
D------------53--5---3----------53-- 5----3---------53---5---3------------53---
A----------5----5--5-----------5-----5--5-----333-5----5---5------------5----5-3
E--333---------------333----------------------------------333-------------





G----------------------------------------------------------------
D----------------------------------------------------------------
A--1--------------------------------------------------------------
E----3-1-----------------------------------------------------------



Verse



G---------------------------------------------------------------
D----------53----3----5----3-------------53---5---3------------53---5---3-----
A---------5----5----5----5-------------5-----5---5------333-5-----5---5-------
E--333----------------------666----------------------------------------



G----------------------------------------------------------------
D-----------53-----------------------------------------------------
A---------5-----5-3-1------------------------------------------------
E--333-------------31-------------------------------------------------



G---------------------------------------------------------------
D----------53----3----5----3-------------53---5---3------------53---5---3-----
A---------5----5----5----5-------------5-----5---5------333-5-----5---5-------
E--333----------------------666----------------------------------------



G----------------------------------------------------------------
D--------5-3---5----------------------------------------------------
A--666------5--------------------------------------------------------
E----------------6------------------------------------------------ play verse x3







Chorus



G----------------------------------------------------------------
D----------------------------------------------------------------
A--------------------------------------1-1-1---1-1---1-1---1-1------------
E--3-3-3---3-3---3-3---3-3----------------------------1---1-1--1-1--1-1--1-1-------



G----------------------------------------------------------------
D----------------------------------------------------------------
A---3-3-3---3-3---3----------------------------------------------------
E--------------------0---12-----------------------------------------


Bass tab by Will Hughes aka Mr Bluesman (willyboydas1st@hotmail.com)

back to song list

home news music info center tour photo archives fan community archives web guide
Design & site concept © 1995-2015 PWCR. All Rights Reserved. Privacy Policy.    Cookie Policy.