BON JOVI FAN CENTRAL

home
bon jovi news
world tour
songs & albums
photo archives
fan community
downloads
dry county archives
bon jovi web guide
Album: Keep the Faith

In These Arms

Bon Jovi  In These Arms

||----------------|-----------------|---------------|-------------------||
||o-2-2----2-2----|-----2---2-2-----|-2-2----2-2----|-----2---2-2------o||
||o------2--------|---2---2-----4-2-|------2--------|---2---2-----2-4--o||
||--------------0-|-4---------------|-------------0-|-4-----------------||

&nb!
sp;
1.
|---------------|--------------|---------------|---------------|-----------------|| from
|---------------|--------------|---------------|-----------1---|-2-2----2-2-----o|| top
|-4-4----4-4----|h4p6-4-4-6-7--|------------4--|-2-----2-4---2-|------2---------o||
|------4------4-|--------------|-5-5--0-5-7----|-----2---------|-------------0---||


2. $
|---------------||------------------|-----------------|-----------------|------------------|
|---------------||o-----------------|-------------1---|---------------6-|------------------|
|-2--2--2-0-----||o-----------------|-2-2-2-2-2-4---2-|-4-4-4-4-4-6-7--!
-|---------------2--|
|-----------4-2-||--0-0-0-0-0-2-4-0-|-----------------|-----------------|-5-5-5-0-5-4-2----|
I'd hold you


1. &!
nbsp; 2.
|-----------------|-----------------|-----------------|------------------||------------------|
|-----------------|-----------------|-----------------|-----------------o||------------------|
|-----------------|-4-4-4-4-4-6-7-4-|-2-2-2-2-2-2-2-2-|-0-0-0-0-0-2-4-0-o||---------------0--|
|-0-0-0-0-0-2-4-0-|-----------------|-----------------|------------------||-4-4-4-4-4-4-4----|


To Coda
|-----------------|-----------------------||----------------|-----------------|----------------|
|-----------------|-----------------------||o-2-2----2-2----|-----2---2-2-----|-2-2----2-2-----|
|-2-2-2-2-2-2-2-2-|-0-0-0---0-2-4-0-------||o------2--------|---2---2-----4-2-|------2---------|
|-----------------|-------0---------------||--------------0-|-4---------------|-------------0--|


D.S. al Coda
|------------------||---------------|----------------|--------!
-------|-----------------|
|-----2---2-2-----o||---------------|----------------|---------------|-----------------|
|---2---2-----2-4-o||-4-4----4-4----|h4p6-4--4-4-6-7-|------------4--|-2-2-2-2-2-0-----|
|-4----------------||------4------4-|----------------|-5-5--0-5-7----|-------------4-2-|


&
|-----------------|------------|-----------------|-----------------|---------------!
---|
|-2-2-2-2-2-2-2-2-|------------|-----------------|-----------------|------------------|
|-----------------|------------|-----------------|---------%-------|-------------4----|
|-----------------|--4---5--6--|-7-7-7-7-7-7-7-7-|-----------------|-5-5-5-5-5-7---5--|
1 + 3 4 Your clothes


|-----------------|-----------------|-----------------|-----------------|------------------|
|-----------------|-----------------|-----------------|-----------------|------------------|
|-----------------|-2-2-2-2-2-2-2-2-|--------%--------|-0-0-0-0-(0)--0--|-0-0-0-0-0-2-0-2--|
|-5-5-4-4-2-2-0-0-|-----------------|-----------------|-----------------|------------------|


1. 2.
||------------------|-----------------|-----------------|------------------||------------------|
||o-----------------|-----------------|-----------------|-----------------o||------------------|
||o--------!
---------|-2-2-2-2-2-2-2-2-|-4-4-4-4-4-4-4-4-|-0-0-0-0-0-2-4-0-o||------------------|
||--0-0-0-0-0-0-0-0-|-----------------|-----------------|------------------||-2-2-2-2-2-2-2-2--|
Solo

|-----------------|-----------------|-----------------|-----------------||-------------------|
|-----------------|-----------------|-----------------|-----------------||o------------------|
|-0-0-0-0-0-0-0-0-|-2-2-2-2-2-2-2-2-|--------%--------|--------%--------||o---------!
---------|
|-----------------|-----------------|-----------------|-----------------||--0-0-0-0-0-2-4-0--|


1. &nb!
sp;
|-----------------|-----------------|-----------------|-----------------|------------------|
|-------------1---|---------------6-|-----------------|-----------------|------------------|
|-2-2-2-2-2-4---2-|-4-4-4-4-4-6-7---|-0-0-0-0-0-----2-|-----------------|-4-4-4-4-4-6-7-4--|
|-----------------|-----------------|-----------4-2---|-0-0-0-0-0-2-4-0-|------------------|


2.
|-----------------|------------------||-----------------|-----------------|------------------|
|-----------------|-----------------o||-----------------|-----------------|------------------|
|-2-2-2-2-2-2-2-2-|-0-0-0-0-0-2-4-0-o||-----------------|-2-2-2-2-2-2-2-2-|-0-0-0-0-0-2-4-0--|
|-----------------|------------------||-4-4-4-4-4-4-4-5-|-----------------|------------------|
!


||------------------|-----------------|-----------------|-------------------||
||o-----------------|-----------------|-----------------|------------------o||
||o-----------------|-2-2-2-2-2-2-2-2-|-4-4-4-4-4-4-4-4-|-0-0-0-0-0-0-0-0--o||
||--0-0-0-0-0-0-0-0-|-----------------|-----------------|-------------------||

repeat & fade

Bass tab by Will Hughes aka Mr Bluesman (willyboydas1st@hotmail.com)

back to song list

home news music info center tour photo archives fan community archives web guide
Design & site concept © 1995-2015 PWCR. All Rights Reserved. Privacy Policy.    Cookie Policy.