BON JOVI FAN CENTRAL

home
bon jovi news
world tour
songs & albums
photo archives
fan community
downloads
dry county archives
bon jovi web guide
Rare

Stay


Bon Jovi Ė Stay

(The Bass Tabs in the start and the end of the song)
A little different then what McDonaldís playing.
G---------------------------------------------------------------------------
D---------------------------------------------------------------------------
A--4---6-7-6---4-2-------------------------------------------------------
E---------------------0-2--4-5-4---2-0-2-0-2---------------------------

E G#m
Every singerís always singing about someone else
A F#m
Another bleeding heart, another brand new start
E G#m
But this time Iím singing all about myself
A
I made it be so lonely
Am
Even my piano wants to cry
G#m
These arms werenít there to hold you
A
And when I was home I was miles away
G#m A
Now youíve got every right to go girl but Iím standing here
B
Iím begging youÖ.
E G#m
Stay just a little longer
A
Youíve always been the one whoís stronger
F#m
I canít let you go
E
Iím begging you stay
G#m
Stay because I need you
A
With every breath I breathe you
Am
I canít let you walk away

E G#m
There are things I didnít ever say or do
A
Like I would die without you
F#m
Didnít mean I didnít want to
E G#m
But every song I ever sang I sang for you
A
And every night away from you
Am
Knowing youíd be homeís what got me through
G#m A
Tore up all the pictures of our wasted yesterdays
G#m A
Iím fighting for tomorrow, standing here
B
Iím begging youÖ
E G#m
Stay just a little longer
A
Youíve always been the one whoís stronger
F#m
I canít let you go
E
Iím begging you stay
G#m
Stay because I need you
A
With every breath I breathe you
Am
I canít let you walk away

(Solo)
E------------------4-------------------4----------------------------------------------------------
B----4--2--4--2--------4--2--4--2---------4---------------------------------------------------
G---------------------2-------------------2------6--4--2----------------------------------------
D-----------------------------------------------------------2-------------------------------------
A--------------------------------------------------------------------------------------------------
E--------------------------------------------------------------------------------------------------
G/ f# Bm
Stay, I know Iíve done you wrong
A
Itíd be easy to move on
G G/ f#
Iím telling you, Iím begging you
Em D
Iím pleading, Iím screaming!
E G#m
Stay just a little longer
A
Youíve always been the one whoís stronger
F#m
I canít let you go
E
Iím begging you stay
G#m
Stay because I need you
A
With every breath I breathe you
F#m
I canít let you walk away
E G#m A
Stay
F#m
Come on, come on, come on, come on, come on
E G#m
Stay just a little longer
A
Youíve always been the one whoís stronger
F#m E
I canít let you walk away

Then the piano and the bass end the song.


By: Robin Sjoegren Any quesions send an email to: Roobydedu@hotmail.com


---------------------------------
---------------------------------
---------------------------------


Every singer's always singing about someone else E- G#m
Another bleeding heart, another brand new start A- F#m
But this time I'm singin all about myself E- G#m
I made it be so lonely A
Even my piano wants to cry Am
These arms weren't there to hold you G#m
When I was home I was miles away A
Now you've got every right to go girl G#m
But I'm standing here, I'm begging you A- B

Stay, just a little longer E- G#m
You've always been the one who's stronger A
I can't let you go B
I'm begging you stay E
Stay because I need you G#m
With every breath I breath you A
I can't let you walk away Am

Stay, I know I've done you wrong G- Bm
It'd be easy to move on A
I'm telling you, I'm begging you G- G/ f#
I'm pleading, I'm screaming G/ e - D


Not sure about the four last chords ...Someone can help ?

Send any comments, suggestions to
Christophe Arnould (arnouldchristophe@hotmail.com)

back to song list

home news music info center tour photo archives fan community archives web guide
Design & site concept © 1995-2015 PWCR. All Rights Reserved. Privacy Policy.    Cookie Policy.